Results 1 to 6 of 6

Thread: Boat on a River solo tab

  1. #1

    Default Boat on a River solo tab

    Styx "Boat on a River" Solo Tab

    E----|-----------------|-----------------|-----------------|-----------------|
    A----|-----------------|0-1-5-0-1-------|0-1-5-1-0-1--333333--------------|
    D----|-----------0-5-5|-----------5----5|-----------------|-----------------|
    G----|0-0-2-3-5-------|-----------------|-----------------|-----------------|
    |_|_|_| |_|_|_| |_|_|_| |_|_|_| |_|_|_| |_|_|_| |_|_|_| |_|_|_|


    E |------P----------|-----------------|------33333-5-6666-5-3-6666-8----||
    A l1-0--1-0----------|----0----0-1-5-1|-0---11111-3-5555-3-1-5555-6----o|
    D |---------3---4444|4-5----5--------|-----------------|-----------------o|
    G |-----------------|-----------------|-----------------|-----------------||
    |_|_|_| |_|_|_| |_|_|_| |_|_|_| |_|_|_| |_|_|_| |_|_|_| |_|_|_|

    S
    -----|6666--5-3--1111|2222-3-3-5-3----|3-1--------------|-----------------|
    -----|5555--3-1--0000|0000-------------|----5-3-1--------|--0-1-3-5---0-1-|
    -----|-----------------|-----------------|----------5 -----|5----------5-----|
    -----|-----------------|-----------------|-----------------|-----------------|
    |_|_|_| |_|_|_| |_|_|_| |_|_|_| |_|_|_| |_|_|_| |_|_|_| |_|_|_|


    |-----------------|-----------------|-----------------|-----------------||
    |-----------------|-----------------|-----------------|-----------------o|
    |-----------------|-----------------|-----------------|-----------------o|
    |-----------------|-----------------|-----------------|-----------------||
    |_|_|_| |_|_|_| |_|_|_| |_|_|_| |_|_|_| |_|_|_| |_|_|_| |_|_|_|

    could not find a good tab so I did it myself Its pretty close
    Chuck

  2. #2

    Default Re: Boat on a River solo tab

    The tab moved a little when I put it in this thread things don't line up
    Like they should just a little off. I need a better tab writing program.

  3. #3

    Default Re: Boat on a River solo tab

    E----|-----------------|-----------------|-----------------|-----------------|
    A----|-----------------|0-1-5-0-1-------|0-1-5-1-0-1--333333--------------|
    D----|-----------0-5-5|-----------5----5|-----------------|-----------------|
    G----|0-0-2-3-5-------|-----------------|-----------------|-----------------|
    |_|_|_| |_|_|_| |_|_|_| |_|_|_| |_|_|_| |_|_|_| |_|_|_| |_|_|_|


    E |------P----------|-----------------|------33333-5-6666-5-3-6666-8----||
    A l1-0--1-0----------|----0----0-1-5-1|-0---11111-3-5555-3-1-5555-6----o|
    D |---------3---4444|4-5----5--------|-----------------|-----------------o|
    G |-----------------|-----------------|-----------------|-----------------||
    |_|_|_| |_|_|_| |_|_|_| |_|_|_| |_|_|_| |_|_|_| |_|_|_| |_|_|_|

    S
    -----|6666--5-3--1111|2222-3-3-5-3----|3-1--------------|-----------------|
    -----|5555--3-1--0000|0000-------------|----5-3-1--------|--0-1-3-5---0-1-|
    -----|-----------------|-----------------|----------5 -----|5----------5-----|
    -----|-----------------|-----------------|-----------------|-----------------|
    |_|_|_| |_|_|_| |_|_|_| |_|_|_| |_|_|_| |_|_|_| |_|_|_| |_|_|_|

  4. #4

    Default Re: Boat on a River solo tab

    That looks better I didn't go to advanced for the reply the first time.......... let me know what you think of the tab.....
    the ending lick ??? Maybe....

  5. #5

    Default Re: Boat on a River solo tab

    Well the tab lines up when on PC but on Tablet or Phone its a little off..............

  6. #6

    Default Re: Boat on a River solo tab

    did tab agian......
    Boat on a river solo tab by tooloud,
    Last edited by tooloud; May-25-2020 at 12:52pm.

Posting Permissions

  • You may not post new threads
  • You may not post replies
  • You may not post attachments
  • You may not edit your posts
  •