Results 1 to 1 of 1

Thread: Take on me - complete melody

  1. #1

    Default Take on me - complete melody

    Intro

    E |-2-2-------0-0--0-4-4-5-7--5-5-2-----2-2--2-0-0-2-0-
    A |-----4-2-2-----------------------5-5----------------
    D |----------------------------------------------------
    G |----------------------------------------------------


    anyway
    E |-------------------2-2-2-0-----------
    A |-5-5-4-2---4-4-4-0---------5-5-5-4-2-
    D |-------------------------------------
    G |-------------------------------------


    for your love, okay?
    E |----------------------------|--------------------
    A |4-4-4-2-0-2-4-2-0---5-5-5-5-|--------------------
    D |----------------------------|7-7-7-7-7-7-7-6-4-2-
    G |----------------------------|--------------------


    chorus
    E |-------0-2-0-------0-2-0---4-5--7-9-7-5-12
    A |-------------0-7-9-------4----------------
    D |---6-7------------------------------------
    G |-2----------------------------------------


    With that I believe it's possible to play the whole song.

  2. The Following 3 Users Say Thank You to samkultz For This Useful Post:


Posting Permissions

  • You may not post new threads
  • You may not post replies
  • You may not post attachments
  • You may not edit your posts
  •