PDA

View Full Version : [CHORDS/TAB REQUEST] Hymn of Ordinary Motion - Douglas/Thile



MrEma93
Aug-28-2016, 11:53am
Hi guys! Does anyone have a tab for this mandolin part?


https://youtu.be/Cwc-ABw_vK0?t=4m27s

If not, can you tell me what chords are used during crosspicking??
Unfortunately I'm not able to find a video with fingerboard visible!

Thanks!

MrEma93
Aug-29-2016, 4:56am
..5:31................5:34........................ ..............................5:42
...|...................|.......................... ...............................|..
E|-----------------5/3-2-7----7/9-9/10-14-12-10-9-7-5---9---------------------------|
A|-------0-2-5-5/4---------12-------------------------9---9/8-7-5-7-4/2-0-2---------|
D|-2-4-5--------------------------------------------------------------------4p2-0---|
G|--------------------------------------------------------------------------------4-|

..5:43..................................5:49...... ...................................
...|.....................................|........ ...................................
E|-------------5-5-0----------------------------------------------------------------|
A|-----------0-0-0---5-4-2---0-2-4-5-4-0-2------------------------------------------|
D|-------0-0---------------5---0----------------------------------------------------|
G|-4-4h6----------------------------------------------------------------------------|

..5:50............................................ ...5:57....5:59..........6:02......
...|.............................................. ....|.......|.............|........
E|-----------------2-/5-/7-p10-12-10-9-7-14-7-7/5-0-0p2-----------------------------|
A|---------------5--------------------------------------------9/7-5-5-4-0-0p2-------|
D|-----2p4-5-5/7--------------------------------------------------------------------|
G|-2/4------------------------------------------------------------------------------|


This is what I was able to write down for now